Menu Nazareth
Главная страница
Биография Nazareth
История группы Nazareth
История группы Nazareth - 1
Состав группы Nazareth
Статьи о группе Nazareth
Блог на сайте Nazareth
PIONEERS AND MAVERICKS OF SCOTTISH ROCK
Дискография Nazareth
LP Nazareth 1975-1980
LP Nazareth 1981-1986
LP Nazareth 1989-2011
Фотоархив группы
Концертные фото Nazareth
Посмотреть видео Nazareth
Nazareth. Rusian Fan Site. Biographies, Diskographies, Photos, Video, Tour Dates. Оригинальные композиции  Табулатуры для гитаристов Лирика и мызыка Творчество Nazareth
График тура Nazareth - 2008
Табулатуры группы Nazareth
Тексты песен участников группы Nazareth
Тексты песен Nazareth
 
Rock Text
Hard Rock Text
Rock Lyrics
 
Partners
 

 
Nazareth Press
 
Login Form
Логин:
Пароль:





Breathe In The Air
q E s e e q h q e e
G :----9--------9---|----------------|
D :------------------|----------------|
A :7--------7-7------|0-------4---5-6-|
E :-------7----------|----------------|
q q q q h q e s s
G :----9-------9---|-----------------|
D :-----------------|--------------7h9|
A :7-------7--------|0-------0-0------|
E :-----------------|-----------------|
q Q e s E q q+s se e e
G :----9-------7h9--|----2-----------|
D :------------------|----------------|
A :7---------7-------|0--------x4-5-6-|
E :------------------|----------------|
q E s e e q q q+s se e e
G :----9--------9---|----2-----------|
D :-----------------|----------------|
A :7--------7-7-----|0--------x4-5-6-|
E :-------7---------|----------------|
q q q e e q q e e e e
G :----9---9---7-9--|----2-------------|
D :-----------------|-------------7/-9-|
A :7----------------|0--------0-0------|
E :-----------------|------------------|
e
q q s sr s E q q e e e e
G :----9----------9--|----2------------|
D :--------9---------|------------7---|
A :7---------7--7----|0-------0-0----5-|
E :------------------|-----------------|
q q e e q q E s e e e e
G :----9-------9---|-----------------|
D :-----------------|----7--------7---|
A :7-------7-7------|0--------0-0---5-|
E :-----------------|-------0---------|
s s
q q e e e s s q q s srsrE
G :----9---------7h9-|-----------------|
D :------------9-----|----7---7-5------|
A :7-------7-7-------|0-----------7-5--|
E :------------------|-----------------|
s
Q+s ssre e e Q s s s s s e e
G :----------------|-----2-h4-2-h4-2-----|
D :------------5---|-----------------4---|
A :3------x3-3---3-|2------------------2-|
E :----------------|---------------------|
s
Q+s s srq e Q e q q
G :-----------------|----------------|
D :3--------3-3---3-|5-----5---------|
A :-------3---------|--------5---6---|
E :-----------------|----------------|
q E s e e e s s Q+s s s e e e
G :----9--------9-7h9-|-----------------|
D :-------------------|7------7---------|
A :7--------7-7-------|---------0-4-5-6-|
E :-------7-----------|-----------------|
q q e e e s s Q+s s E s e e
G :----9--------9-7h9-|--------------------|
D :-------------------|7------7--------7h9-|
A :7--------7-7-------|---------0--0-7-----|
E :-------------------|--------------------|
e
h q+s E h q s s r
G :--------9-------|-----------------|
D :----------------|7----------------|
A :7------------7--|--------0---4-5--|
E :----------------|-----------------|
e
q q q q h q s s r
G :----9-------9---|-----------------|
D :-----------------|7-----------7-5--|
A :7-------7--------|--------0--------|
E :-----------------|-----------------|
Menu Nazareth
Главная страница
Информация о сайте
Каталог ссылок

The Anthology


Обратная связь
Гостевая книга
Hard Rock Lyrics
Texts And Lyrics
Texts And Translations
Tabs And Translations




От мира сего...




 
  Российский неофициальный сайт легендарной группы Nazareth © 2019