Menu Nazareth
Главная страница
Биография Nazareth
История группы Nazareth
История группы Nazareth - 1
Состав группы Nazareth
Статьи о группе Nazareth
Блог на сайте Nazareth
PIONEERS AND MAVERICKS OF SCOTTISH ROCK
Дискография Nazareth
LP Nazareth 1975-1980
LP Nazareth 1981-1986
LP Nazareth 1989-2011
Фотоархив группы
Концертные фото Nazareth
Посмотреть видео Nazareth
Nazareth. Rusian Fan Site. Biographies, Diskographies, Photos, Video, Tour Dates. Оригинальные композиции  Табулатуры для гитаристов Лирика и мызыка Творчество Nazareth
График тура Nazareth - 2008
Табулатуры группы Nazareth
Тексты песен участников группы Nazareth
Тексты песен Nazareth
 
Rock Text
Hard Rock Text
Rock Lyrics
 
Partners
 

 
Nazareth Press
 
Login Form
Логин:
Пароль:




Табулатуры группы
 
 
Changin Times

-----------------------------------------------------------------------------
Changin Times - Nazareth
-----------------------------------------------------------------------------
Tabbed by: Guitarzan Freak
Album: Hair of the Dog Tuning: Standard

Intro/Main Riff:
e -------------|-------------|-------------------------|
B -------------|-------------|-------------------------|
G -------------|-------------|-------------------------|
D -7-5---------|-7-5---------|-7-5-7-5-7h8-7p5---------|
A -----7-5-3---|-----7-5-3---|-----------------7p5p3---|
E -----------5-|-----------5-|-----------------------5-| Riff 2
e -------------|-------------|-------------------------|
B -------------|-------------|-------------------------|
G -7-5---------|-7-5---------|-7-5-7-5-7h8-7p5---------|
D -----7-5-3---|-----7-5-3---|-----------------7p5p3---|
A -----------5-|-----------5-|-----------------------5-|
E -------------|-------------|-------------------------| Riff 3
e -------------|
B -------------|
G -------------|
D -7-5---------|
A -----7-5-3---|
E -----------5-| Riff 4
e ----------------------|
B ----------------------|
G ----------------------|
D ---------7xx7xx7xx7-7-|
A -----3---7xx7xx7xx7-7-|
E -3h5---5-5xx5xx5xx5-0-| Riff 5
e ----------------------|
B ----------------------|
G ---------7xx7xx7xx7-7-|
D -----3---7xx7xx7xx7-7-|
A -3h5---5-5xx5xx5xx5-0-|
E ----------------------|

=================================
 
Табулатуры и аккорды самых популярных
композиций Nazareth
 
 
Menu Nazareth
Главная страница
Информация о сайте
Каталог ссылок

The Anthology

Обратная связь
Гостевая книга
Hard Rock Lyrics
Texts And Lyrics
Texts And Translations
Tabs And Translations


гибкая система бонусов с начислением выгодных процентов в зависимости от суммы на finmax

От мира сего...




 
  Российский неофициальный сайт легендарной группы Nazareth © 2017