Menu Nazareth
Главная страница
Биография Nazareth
История группы Nazareth
История группы Nazareth - 1
Состав группы Nazareth
Статьи о группе Nazareth
Блог на сайте Nazareth
PIONEERS AND MAVERICKS OF SCOTTISH ROCK
Дискография Nazareth
LP Nazareth 1975-1980
LP Nazareth 1981-1986
LP Nazareth 1989-2011
Фотоархив группы
Концертные фото Nazareth
Посмотреть видео Nazareth
Nazareth. Rusian Fan Site. Biographies, Diskographies, Photos, Video, Tour Dates. Оригинальные композиции  Табулатуры для гитаристов Лирика и мызыка Творчество Nazareth
График тура Nazareth - 2008
Табулатуры группы Nazareth
Тексты песен участников группы Nazareth
Тексты песен Nazareth
 
Rock Text
Hard Rock Text
Rock Lyrics
 
Partners
 

 
Nazareth Press
 
Login Form
Логин:
Пароль:





Eclipse (4 вариант)
-------------------------------------------------------
------------15---------------------15------------15-15-
--------14-----14-------------14------14---------------
-----16-----------16-------16------------16------------
--17--------------------15--------------------13-------
-------------------------------------------------------
D
--0----0-----------2---
------------------3----
-----0----0------2----- (spoken) (There is no dark side of
----------------0------ the moon really... matter
---------------0------- of fact, it's all dark)
-----------------------

--0---------------14---
-----15--15------15----
----------------14-----
---------------0-------
-----------------------
-----------------------
w/heartbeat effects
Lyrics:
All that you touch, and all that you see
And all that you taste, all that you feel
And all that you love, and all that you hate
And all you distrust, and all that you save
And all that you give, and all that you deal
And all that you buy, beg borrow or steal
And all you create, and all you destroy
And all that you do, and all that you say
And all that you eat, and everyone you meet
And all that you slight, and everyone you fight
And all that is now, and all that is gone
And all that's come, and everything under the sun is in tune
But the sun is eclipsed by the moon.
Menu Nazareth
Главная страница
Информация о сайте
Каталог ссылок

The Anthology


Обратная связь
Гостевая книга
Hard Rock Lyrics
Texts And Lyrics
Texts And Translations
Tabs And Translations




От мира сего...




 
  Российский неофициальный сайт легендарной группы Nazareth © 2019