Menu Nazareth
Главная страница
Биография Nazareth
История группы Nazareth
История группы Nazareth - 1
Состав группы Nazareth
Статьи о группе Nazareth
Блог на сайте Nazareth
PIONEERS AND MAVERICKS OF SCOTTISH ROCK
Дискография Nazareth
LP Nazareth 1975-1980
LP Nazareth 1981-1986
LP Nazareth 1989-2011
Фотоархив группы
Концертные фото Nazareth
Посмотреть видео Nazareth
Nazareth. Rusian Fan Site. Biographies, Diskographies, Photos, Video, Tour Dates. Оригинальные композиции  Табулатуры для гитаристов Лирика и мызыка Творчество Nazareth
График тура Nazareth - 2008
Табулатуры группы Nazareth
Тексты песен участников группы Nazareth
Тексты песен Nazareth
 
Rock Text
Hard Rock Text
Rock Lyrics
 
Partners
 

 
Nazareth Press
 
Login Form
Логин:
Пароль:





Fat Old Sun 2
e----------------------------------------------------------
B----------------------------------------------------------
G----------------------------------------------------------
D---3h5--5--3\2------------------------(10)b9--7-----------
A----------------5--3--3h5--3h5--5~---------------12-------
E-----------------------------------------------------12---
e----------------------------------------------------------
B----------------------------------------------------------
G----------------------------------------------------------
D-------------------------------12h14---(15)b14--12--------
A-----------------------12h14------------------------------
E--10h12--10h12--12/14-------------------------------------
e----------------------------------------------------------
B----------------------------------------------------------
G----------------------------------------------------------
D--12h14--14b(15)==(15)--(15)b14--(15)b14--14---12---------
A---------------------------------------------------12-----
E----------------------------------------------------------
e----------------------------------------------------------
B----------------------------------------------------------
G----------------------------------------------------------
D---------10------10h12--12---12\10------------------------
A--10/12------12---------------------12--12--10/12--12-----
E----------------------------------------------------------
e----------------------------------------------------------
B----------------------------------------------------------
G---------------------------------10-----10-----10---------
D---7--5--------------------------10h12--10h12--10---------
A---------7\5-5--5--5h7b(8)-/-12---------------------------
E----------------------------------------------------------
slowly fade out...
e----------------------------------------------------------
B--------------------------------------------16h13-16b(18)-
G---10-----10-----10---------------------------------------
D---10h12--10h12--10-----10b(12)====(12)b10----------------
A----------------------------------------------------------
E----------------------------------------------------------
e---X16/18--15---------------------------------------------
B---X16/18--15---------------------------------------------
G-----------------------------------10--10---9--10--9------
D----------------------------10h12--10--10--10---------8---
A---------------------10/12--------------------------------
E-----------------12---------------------------------------
Menu Nazareth
Главная страница
Информация о сайте
Каталог ссылок

The Anthology


Обратная связь
Гостевая книга
Hard Rock Lyrics
Texts And Lyrics
Texts And Translations
Tabs And Translations




От мира сего...




 
  Российский неофициальный сайт легендарной группы Nazareth © 2019