Menu Nazareth
Главная страница
Биография Nazareth
История группы Nazareth
История группы Nazareth - 1
Состав группы Nazareth
Статьи о группе Nazareth
Блог на сайте Nazareth
PIONEERS AND MAVERICKS OF SCOTTISH ROCK
Дискография Nazareth
LP Nazareth 1975-1980
LP Nazareth 1981-1986
LP Nazareth 1989-2011
Фотоархив группы
Концертные фото Nazareth
Посмотреть видео Nazareth
Nazareth. Rusian Fan Site. Biographies, Diskographies, Photos, Video, Tour Dates. Оригинальные композиции  Табулатуры для гитаристов Лирика и мызыка Творчество Nazareth
График тура Nazareth - 2008
Табулатуры группы Nazareth
Тексты песен участников группы Nazareth
Тексты песен Nazareth
 
Rock Text
Hard Rock Text
Rock Lyrics
 
Partners
 


 
Nazareth Press
 
Login Form
Логин:
Пароль:





HAVE A CIGAR
gtr 1 (w/phaser)
Rhy. Fig. 1 end Rhy. Fig. 1
----------------------------------------------------------------
----------------------------------------------------------------
----X\X\X\X\X\--------------------------------------------------
----X\X\X\X\X\-----2--------2--------2-----2--------2-----------
----X\X\X\X\X\-----2--------2--------2-----2--------2-----------
----X\X\X\X\X\--0-----0--3B-------------------3--0-----3~~~~~~~-
Rhy. Fig. 2 end Rhy. Fig. 2 w/Rhy. Fig. 1
---------------------------------------------------------------------
---------------------------------------------------------------------
---------------------------------------------------------------------
----2--------2--------2-----2--------2----X\X\X\X\-------------------
----2--------2--------2-----2--------2----X\X\X\X\-------------------
-0-----0--3B-------------------3--0-------X\X\X\X\-------------------
gtr 2
---------------------------------------------------------------------
---------------------------------------------------------------------
---------------------------------------------------------------------
---------------------------------------------------------------------
-----------------------------------------/7-----5--------------------
---------------------------------------------------7--6--5--3~~~~~~~-
gtr 1
---------------------------------------------------------------------
---------------------------------------------------------------------
---------------------------------------------------------------------
------------------------2--------2--------2-----0--------------------
------------------------2--------2-----------------2--1--0-----------
---------------------0-----0--3B----------------------------3~~~~~~~-
w/bar
---------------------------------------------------------------------
---------------------------------------------------------------------
-----------------2B-(4)------------~~~~~~~~~~~~\---------------------
---------------------------------------------------------------------
---------------------------------------------------------------------
---------------------------------------------------------------------
w/Rhy. Fig 1 Rhy. Fig. 3-------------]
---------------------------------------------------------------------
---------------------------------------------------------------------
---------------------------------------------------------------------
------------------------------------------------2--------2-----------
------------------------------------------------2--------2-----------
---------------------------------------------0-----0--3B-------------
------------------------------------------------------------------
------------------------------------------------------------------
------------------------------------------------------------------
------------------------------------------------------------------
-7-----------9-----------10---------------------------------------
----------------------------------8-------------------------------
Rhy. Fig. 4
------------------------------------------------------------------
--------------------------------------------------5---------------
--------------------------------------------------5---------------
-2-----------4-----------5------------------------5-----------4---
----------------------------------3---------------3-----------2---
------------------------------------------------------------------
gtr 1
------------------------------------------------------------------
-----5-----------5---5-------5-------^------------5---------------
-----5-----------5---5-------5----4--/5-----------5-------5-------
-4---5-----------5---5-------5----4--/5-------5---5-------5-------
-2---3-----------3---3------------2--/3-----------3-------3-------
------------------------------------------------------------------
gtr 2
----------------------------------------------------------------------
----------------------------------------------------------12-12-12-12-
----------------------------------------------------------12-12-12-12-
----------------------------------2-----------------------------------
-------------10----------9---\----------------------------------------
-8--------------------------------------------------------------------
gtr 1 end Rhy. Fig. 4 w/Rhy. Fig 1
----------------------------------------------------------------------
----------------------------------------------------------------------
----------------------------------------------------------------------
-------------5-----------4--------------------------------------------
-3--------------------------------------------------------------------
----------------------------------------------------------------------
gtr 2 w/Rhy. Fig. 3
------------------------------------------------------------------
-12--\------------------------------------------------------------
-12--\------------------------------------------------------------
------------------------------------------------------------------
------------------------------------------------------------------
------------------------------------------------------------------
gtr 2
Menu Nazareth
Главная страница
Информация о сайте
Каталог ссылок

The Anthology


Обратная связь
Гостевая книга
Hard Rock Lyrics
Texts And Lyrics
Texts And Translations
Tabs And Translations




От мира сего...




 
  Российский неофициальный сайт легендарной группы Nazareth © 2019