Menu Nazareth
Главная страница
Биография Nazareth
История группы Nazareth
История группы Nazareth - 1
Состав группы Nazareth
Статьи о группе Nazareth
Блог на сайте Nazareth
PIONEERS AND MAVERICKS OF SCOTTISH ROCK
Дискография Nazareth
LP Nazareth 1975-1980
LP Nazareth 1981-1986
LP Nazareth 1989-2011
Фотоархив группы
Концертные фото Nazareth
Посмотреть видео Nazareth
Nazareth. Rusian Fan Site. Biographies, Diskographies, Photos, Video, Tour Dates. Оригинальные композиции  Табулатуры для гитаристов Лирика и мызыка Творчество Nazareth
График тура Nazareth - 2008
Табулатуры группы Nazareth
Тексты песен участников группы Nazareth
Тексты песен Nazareth
 
Rock Text
Hard Rock Text
Rock Lyrics
 
Partners
 

 
Nazareth Press
 
Login Form
Логин:
Пароль:





HAVE A CIGAR 2
------------------------------------------------------------------
------------------------------------------------------------------
------------------------------------------------------------------
------------------------------------------------------------------
-7-----------9-----------10---------------------------------------
----------------------------------8-------------------------------
gtr 1
Rhy. Fig. 5
------------------------------------------------------------------
--------------------------------------------------5-----------5---
--------------------------------------------------5-----------5---
-2-----------4-----------5------------------------5-----------5---
----------------------------------3---------------3---------------
------------------------------------------------------------------
------------------------------------------------------------------
------------------------------------------------------------------
------------(9)B(12)-----R-------(9)------------------------------
------------------------------------------------------------------
------------------------------------------------------------------
------------------------------------------------------------------
------------------------------------------------------------------
-----------------5---5-------5----5---------------5---------------
-----------------5---5-------5----5-----------5---5---------------
-----------------5---5-------5----5-----------5---5---------------
---------3---3--------------------3-------3-------3---------------
------------------------------------------------------------------
PM--]
------------------------------------------------------------------
------------------------------------------------------------------
------------------------------------------------------------------
-0----------------------------------------------------------------
----------------------------------10----------9-----------7-------
------------------------------------------------------------------
------------------------------------------------------------------
---------------------7--------------------------------------------
---------------------7--------------------------------------------
---------------------7------------5-----------4-------------------
-5--------------------------------------------------------7-------
------------------------------------------------------------------
----------------------------------------------------------------------
----------------------------------------------------------------------
----------------------------------------------------------------------
----------------------------------------------------------------------
----------------------------------------7~~~~~~~~~~~~~~~~~~~~~--------
-----10--------9-------8---9---10--11---------------------------------
end Rhy. Fig. 5 w/Rhy. Fig. 1
----------------------------------------------------------------------
----------------------------------------------------------------------
----------------------------------------------------------------------
----------------------------------------------------------------------
-----5---------4-------3---4---5---6----------------------------------
----------------------------------------------------------------------
gtr 2 w/bar w/Rhy. Fig. 2
------------------------------------------------------------------
------------------------------------------------------------------
---------------------19B(21)~~~~~~~~~~~~~~~~~~~~~~~~~~~~~~~~~~\---
------------------------------------------------------------------
------------------------------------------------------------------
------------------------------------------------------------------
w/Rhy. Fig. 1 (2x)
------------------------------------------------------------------
------------------------------------------------------------------
Come in here, dear boy,
w/bar
------------------------------------------------------------------
------------------------------------------------------------------
-----------------------------------------------2B(4)~~~~~~~~~~~~~~
------------------------------------------------------------------
------------------------------------------------------------------
------------------------------------------------------------------
have a ci - gar, you're gon-na go far.
gtr 2
------------------------------------------------------------------
------------------------------------------------------------------
~~~~~~~~~~~~~~~~~~~~~\--------------------------------------------
------------------------------------------------------------------
------------------------------------------------------------------
------------------------------------------------------------------
gtr 1
------------------------------------------------------------------
------------------------------------------------------------------
------------------------------------------------------------------
--------------------------------------2-----------2-----------2---
--------------------------------------2-----------2-----------2---
----------------------------------0-------0---3B------------------
You're gon - na fly high, you're
gtr 1
Rhy. Fig. 6 end Rhy. Fig. 6
------------------------------------------------------------------
-----------------1--------------------------------3---------------
-------------0--------------------------------0-------0-----------
---------2-----------0-------0------------4---------------4-------
-3-----------------------2--------5-------------------------------
------------------------------------------------------------------
never gonna die, you're gon - na make it if you try, they're gonna
gtr 2
w/Rhy. Fig. 1 (4x)
------------------------------------------------------------------
-------------15---------------------------------------------------
-------(14)B(15)--------R--------(14)-----------------------------
------------------------------------------------------------------
------------------------------------------------------------------
------------------------------------------------------------------
love you.

------------------------------------------------------------------
------------------------------------------------------------------
Well, I've
Menu Nazareth
Главная страница
Информация о сайте
Каталог ссылок

The Anthology


Обратная связь
Гостевая книга
Hard Rock Lyrics
Texts And Lyrics
Texts And Translations
Tabs And Translations




От мира сего...




 
  Российский неофициальный сайт легендарной группы Nazareth © 2019