Menu Nazareth
Главная страница
Биография Nazareth
История группы Nazareth
История группы Nazareth - 1
Состав группы Nazareth
Статьи о группе Nazareth
Блог на сайте Nazareth
PIONEERS AND MAVERICKS OF SCOTTISH ROCK
Дискография Nazareth
LP Nazareth 1975-1980
LP Nazareth 1981-1986
LP Nazareth 1989-2011
Фотоархив группы
Концертные фото Nazareth
Посмотреть видео Nazareth
Nazareth. Rusian Fan Site. Biographies, Diskographies, Photos, Video, Tour Dates. Оригинальные композиции  Табулатуры для гитаристов Лирика и мызыка Творчество Nazareth
График тура Nazareth - 2008
Табулатуры группы Nazareth
Тексты песен участников группы Nazareth
Тексты песен Nazareth
 
Rock Text
Hard Rock Text
Rock Lyrics
 
Partners
 

 
Nazareth Press
 
Login Form
Логин:
Пароль:





HAVE A CIGAR 3
-------------------------------------------------------------^----
----------------------------------------------------------12-/14--
----------------------------------------------------------12-/14--
------------------------------------------------------------------
------------------------------------------------------------------
------------------------------------------------------------------
always had a deep respect, and I mean that most sin - cere -
w/bar
------------------------------------------------------------------
-12~~~~~~~~~~~~~~-------------------------------------------------
-12~~~~~~~~~~~~~~----------------------------------2B(4)----------
------------------------------------------------------------------
------------------------------------------------------------------
------------------------------------------------------------------
ly. The
w/Rhy. Fig. 3 w/Rhy. Fig. 6
------------------------------------------------------------------
------------------------------------------------------------------
---R(2)-----------------------------------------------------------
------------------------------------------------------------------
------------------------------------------------------------------
------------------------------------------------------------------
band is just fantastic, that is really what I think. Oh,
w/Rhy. Fig. 1 (2x)
----------------------------------------------------------------------
------------------------------------------------------15B(17)-15B(17)~
----------------------------------------------------------------------
----------------------------------------------------------------------
----------------------------------------------------------------------
----------------------------------------------------------------------
by the way, which one's Pink?

------------------------------------------------------------------
~~~~~~~~~~~~~~~~~~~R(15)------------------------------------------
------------------------------------------------------------------
------------------------------------------------------------------
------------------------------------------------------------------
------------------------------------------------------------------

gtr 1 Rhy. Fig. 7
-----------------------------0-------X---0-----------0---------------
-----------------------------1-------X---3-----------0---------------
-----------------------------0-------X---0-----------0---------------
-----------------------------2-------X---4-----------2---------------
-----------------------------3-------X---5-----------2---------------
-----------------------------------------------------0---------------
And if we tell you the name of the game,

-0---------------------0--0-------0---0-------2---2---2---2-------2---
-1---------------------1--1-------1---1-------3---3---3---3-------3---
-0---------------------0--0-------0---0-------2---2---2---2-------2---
-2---------------------2--2-------2---2-------0---0---0---0-------0---
-3---------------------3--3-------3---3-------------------------------
----------------------------------------------------------------------
boy, we call it "riding the gra - vy

------------------------------------------------------------------
-0----------------------------------------------------------------
-0----------------------------------------------------------------
-0----------------------------------------------------------------
-2----------------------------------------------------5---5-------
-3--------------------------------------------3--/7---------------
train."

------------------------------------------------------------------
-------------------------X----------------------------X---5\------
-------------------------X---5----5-----------5-------X---5\------
----5--------------------X---5----5-----------5-------X---5\------
(5)H7--------------------X--------5H7-----7-----------------------
------------------------------------------------------------------

end Rhy. Fig. 7
----------------------------------3---2-----------2---1-----------
-0--------------------------------3---2-----------2---1-----------
-0---------------0----------------4---3-----------3---2-----------
-0---------------0----------------5---4-----------4---3---X-X-X\--
-2---------------2----------------5---4-----------4---3---X-X-X\--
-3-------3-------3----------------3---2-----------2---1---X-X-X\--

w/Rhy. Fig. 1 (4x)
------------------------------------------------------------------
------------------------------------------------------------------

gtr 2
---------------------------------------------------------------------
-------------------------------X15B(17)R(15)P12-15B(17)~~~~~---------
---------------------------------------------------------------------
---------------------------------------------------------------------
---------------------------------------------------------------------
---------------------------------------------------------------------
We're__
Menu Nazareth
Главная страница
Информация о сайте
Каталог ссылок

The Anthology


Обратная связь
Гостевая книга
Hard Rock Lyrics
Texts And Lyrics
Texts And Translations
Tabs And Translations




От мира сего...




 
  Российский неофициальный сайт легендарной группы Nazareth © 2019