Menu Nazareth
Главная страница
Биография Nazareth
История группы Nazareth
История группы Nazareth - 1
Состав группы Nazareth
Статьи о группе Nazareth
Блог на сайте Nazareth
PIONEERS AND MAVERICKS OF SCOTTISH ROCK
Дискография Nazareth
LP Nazareth 1975-1980
LP Nazareth 1981-1986
LP Nazareth 1989-2011
Фотоархив группы
Концертные фото Nazareth
Посмотреть видео Nazareth
Nazareth. Rusian Fan Site. Biographies, Diskographies, Photos, Video, Tour Dates. Оригинальные композиции  Табулатуры для гитаристов Лирика и мызыка Творчество Nazareth
График тура Nazareth - 2008
Табулатуры группы Nazareth
Тексты песен участников группы Nazareth
Тексты песен Nazareth
 
Rock Text
Hard Rock Text
Rock Lyrics
 
Partners
 

 
Nazareth Press
 
Login Form
Логин:
Пароль:





HAVE A CIGAR 6
w/Rhy. Fig. 5
---------------------------------------------------------------------
-------------12-----17P12-15P12--------------------------------------
-14B(16)----------------------------14B(16)-----14-----12B(14)-------
---------------------------------------------------------------------
---------------------------------------------------------------------
---------------------------------------------------------------------
------------------------------------------------------------------
------------------------------------------------------------------
-12~~~~~~~~~~~~~~~~~~11-------------------------------------11----
---------------------------12-----12~~~~~~~~~~~~~~~~~~10----------
------------------------------------------------------------------
------------------------------------------------------------------
fade
------------------------------------------------------------------
------------------------------------------------------------------
-11B(12)R(11)------------------------^----------------------------
--------------10~~~~~~~~~~~------(10)/12~~~~~~~~~~~~~~~~~~X-------
------------------------------------------------------------------
------------------------------------------------------------------
fade to right channel
--------------------------------------------------------------------
-15B(17)-R-(15)-----------------------------------------------------
------------------14B(16)---(16)R(14)P12--14B(16)--(16)R(14)P12-----
----------------------------------------------------------------14~~
--------------------------------------------------------------------
--------------------------------------------------------------------
w/Rhy. Fig. 1 (2x)
------------------------------------------------------15P12-15----
----------------------15B(17)-------------------------------------
------------------------------------------------------------------
~~~~~~~~~~~~~~~~~~~~~~--------------------------------------------
------------------------------------------------------------------
------------------------------------------------------------------
-15B(17)--R--(15)----------------------15---15---15---15---15B(17)---
---------------------------------------------------------------------
---------------------------------------------------------------------
---------------------------------------------------------------------
---------------------------------------------------------------------
---------------------------------------------------------------------
gtr 2
radio sound effects approx. 16 sec.
--15-----------------------------------
---------------------------------------
---------------------------------------
---------------------------------------
---------------------------------------
---------------------------------------
gtr 1
---------------------------------------
---------------------------------------
---------------------------------------
---------------------------------------
---------------------------------------
-0-------------------------------------
Menu Nazareth
Главная страница
Информация о сайте
Каталог ссылок

The Anthology


Обратная связь
Гостевая книга
Hard Rock Lyrics
Texts And Lyrics
Texts And Translations
Tabs And Translations




От мира сего...




 
  Российский неофициальный сайт легендарной группы Nazareth © 2019