Menu Nazareth
Главная страница
Биография Nazareth
История группы Nazareth
История группы Nazareth - 1
Состав группы Nazareth
Статьи о группе Nazareth
Блог на сайте Nazareth
PIONEERS AND MAVERICKS OF SCOTTISH ROCK
Дискография Nazareth
LP Nazareth 1975-1980
LP Nazareth 1981-1986
LP Nazareth 1989-2011
Фотоархив группы
Концертные фото Nazareth
Посмотреть видео Nazareth
Nazareth. Rusian Fan Site. Biographies, Diskographies, Photos, Video, Tour Dates. Оригинальные композиции  Табулатуры для гитаристов Лирика и мызыка Творчество Nazareth
График тура Nazareth - 2008
Табулатуры группы Nazareth
Тексты песен участников группы Nazareth
Тексты песен Nazareth
 
Rock Text
Hard Rock Text
Rock Lyrics
 
Partners
 


 
Nazareth Press
 
Login Form
Логин:
Пароль:





Hey you 2
-----------------------------------------------------------------------------
-3>(5)vvvvvvvvvvvvvvvvvvvv>(4)>(5)>===(4)>(5)>===(4)>(5)------3>(5)vvvvvvvv--
-----------------------------------------------------------------------------
-----------------------------------------------------------------------------
-----------------------------------------------------------------------------
-----------------------------------------------------------------------------
-----------------------------------------------------------------------------
--3/7vvvvvvvvvv--5-7-7>(8)>7vvvvvvvvv---5-7-7>(8)>7vvvvvvvv---5-7-7>(8)>7vvvv
-----------------------------------------------------------------------------
-----------------------------------------------------------------------------
-----------------------------------------------------------------------------
-----------------------------------------------------------------------------
---------------5--7-5-7--7>(8)vvvvvvvvvv(8)==>7>(8)--7>(8)vvvvvvvv-7---
--5vvvvvv-7-8----------------------------------------------------------
-----------------------------------------------------------------------
-----------------------------------------------------------------------
-----------------------------------------------------------------------
-----------------------------------------------------------------------
--7>(8)vvvvvvv(8)===>7--7>(8)vvvvvvvvv----------12-----------------------
----------------------------------------15>(17)-----15>(17)vvvvvvv>(16)--
-------------------------------------------------------------------------
-------------------------------------------------------------------------
-------------------------------------------------------------------------
-------------------------------------------------------------------------
------------12---15-----------12--15-------------------------
---15>(17)-----------15>(17)----------15>(17)vvvvvvvvvvvvvv--
-------------------------------------------------------------
-------------------------------------------------------------
-------------------------------------------------------------
-------------------------------------------------------------
----------------------------------12------------------------------------
--15>(17)======>15>12----------12-----15>(17)=====>(16)>(17)=======>15--
-----------------------14>(16)------------------------------------------
------------------------------------------------------------------------
------------------------------------------------------------------------
------------------------------------------------------------------------
----------14-15/17-17/19--17--19--19>(20)========(20)>19---19>(20)-17>19--
--15>(17)-----------------------------------------------------------------
--------------------------------------------------------------------------
--------------------------------------------------------------------------
--------------------------------------------------------------------------
--------------------------------------------------------------------------
v-- slow dive w/ bar
--19>17--20--19>(20)==>19--19>(20)==========(20)==>19>17--19--------------
--------------------------------------------------------------------------
--------------------------------------------------------------------------
--------------------------------------------------------------------------
--------------------------------------------------------------------------
--------------------------------------------------------------------------
BRIDGE:
C D G D C
But it was only fantasy
D G D C
The wall was too high as you can see.
D G D C
No matter how he tried, he could not break free,
D Emadd9
and the worms ate into his brain.
Play This 4 Times:
____________________
1.-3.
e--------0-----0----------0-----0----------2-----2----------2-----2-----
B--4----------------4----------------2-------3--------2-------3-----0---
G------6---6-----6------6---6-----6------4-----4---4------4-----4------*
D----6-------6--------6-------6--------4----------------4--------------*
A-----------------------------------------------------------------------
E-----------------------------------------------------------------------
____
Menu Nazareth
Главная страница
Информация о сайте
Каталог ссылок

The Anthology


Обратная связь
Гостевая книга
Hard Rock Lyrics
Texts And Lyrics
Texts And Translations
Tabs And Translations




От мира сего...




 
  Российский неофициальный сайт легендарной группы Nazareth © 2019