Menu Nazareth
Главная страница
Биография Nazareth
История группы Nazareth
История группы Nazareth - 1
Состав группы Nazareth
Статьи о группе Nazareth
Блог на сайте Nazareth
PIONEERS AND MAVERICKS OF SCOTTISH ROCK
Дискография Nazareth
LP Nazareth 1975-1980
LP Nazareth 1981-1986
LP Nazareth 1989-2011
Фотоархив группы
Концертные фото Nazareth
Посмотреть видео Nazareth
Nazareth. Rusian Fan Site. Biographies, Diskographies, Photos, Video, Tour Dates. Оригинальные композиции  Табулатуры для гитаристов Лирика и мызыка Творчество Nazareth
График тура Nazareth - 2008
Табулатуры группы Nazareth
Тексты песен участников группы Nazareth
Тексты песен Nazareth
 
Rock Text
Hard Rock Text
Rock Lyrics
 
Partners
 


 
Nazareth Press
 
Login Form
Логин:
Пароль:





Marooned 2
Bm
E --------------------------------------------------------------17h19-
B --31--31------------------------------------------------------------
G ---------31s30----s--28--s-23---------------------------------------
D ------------------steady slide--------------------------------------
A --------------------------------------------------------------------
E --------------------------------------------------------------------
Gmaj
E --19---------17h19-------19---------17----B-------------------------
B ---------------------------------------17(19)-17h19-------15--------
G -------------------------------------------------------------16-----
D --------------------------------------------------------------------
A --------------------------------------------------------------------
E --------------------------------------------------------------------
Em7 <-- back and forward with slide
E ------------------------------17-------19-21-22-21-24-22-24-25--26--
B --17s---15-------------17h19---------x------------------------------
G -----------16--------------------- -x--------------------------------
D ----------------------------------x-rake----------------------------
A --------------------------------------------------------------------
E --------------------------------------------------------------------
---------------using slide ---------------------------------------->
Bm
E --26-26--26-----27-26-24---26---------29-s-26---29--29s31---s--19---
B --------------------------------------------------------------------
G --------------------------------------------------------------------
D --------------------------------------------------------------------
A --------------------------------------------------------------------
E --------------------------------------------------------------------
E ------B---14----B------------------------12---B---------------------
B ----15(17)---15(17)15-12-----15-15----------15(17)--s--(10)---------
G -------------------------14-----------------------------------------
D --------------------------------------------------------------------
A --------------------------------------------------------------------
E --------------------------------------------------------------------
Bm(add9)
E ---------7-----10--7--B-----7---------------------------------------
B ---5-s-7-----7-10----10(12)---7h10----------------------------------
G ------------------------------------9h11--------------9-------------
D --------------------------------------------------------------------
A --------------------------------------------------------------------
E --------------------------------------------------------------------
steady slide
E --------------------------------------B------------------B---R---B--
B ------------------------------------17(19)-------------17(19)17(19)-
G ----2---s------4----------------------------------------------------
D ----2---s------4----------------------------------------------------
A --------------------------------------------------------------------
E --Drums Enter Here--------------------------------------------------
Gmaj
E --------------------------------------------------------------------
B -----------------------17s19--------------------17-------17---19----
G --16-----16h18h19p18-----------------16---18h19----18---------------
D --------------------------------------------------------------------
A --------------------------------------------------------------------
E --------------------------------------------------------------------
Em7
E ------------------------------------------B-------------------------
B --------17--19--------17--19--------17--19(20)p17-s--12-----19-19-20
G --19h21---------19h21--------19h21----------------------------------
D --------------------------------------------------------------------
A --------------------------------------------------------------------
E --------------------------------------------------------------------
steady slide Bm
E --------------------------------------------------------------------
B --19p17---19---19--s----31---32s30---31----31------36-36-36---------
G ----------------------------------------33--------------------------
D --------------------------------------------------------------------
A --------------------------------------------------------------------
E --------------------------------------------------------------------
steady slide
E --------------------------------------------------------------------
B 36s34-34-34--------------------- ----24-------s----------26---------
G -----------35s33-33-33s31s30-30-26----------------------------------
D --------------------------------------------------------------------
A --------------------------------------------------------------------
E --------------------------------------------------------------------
Menu Nazareth
Главная страница
Информация о сайте
Каталог ссылок

The Anthology


Обратная связь
Гостевая книга
Hard Rock Lyrics
Texts And Lyrics
Texts And Translations
Tabs And Translations




От мира сего...




 
  Российский неофициальный сайт легендарной группы Nazareth © 2019