Menu Nazareth
Главная страница
Биография Nazareth
История группы Nazareth
История группы Nazareth - 1
Состав группы Nazareth
Статьи о группе Nazareth
Блог на сайте Nazareth
PIONEERS AND MAVERICKS OF SCOTTISH ROCK
Дискография Nazareth
LP Nazareth 1975-1980
LP Nazareth 1981-1986
LP Nazareth 1989-2011
Фотоархив группы
Концертные фото Nazareth
Посмотреть видео Nazareth
Nazareth. Rusian Fan Site. Biographies, Diskographies, Photos, Video, Tour Dates. Оригинальные композиции  Табулатуры для гитаристов Лирика и мызыка Творчество Nazareth
График тура Nazareth - 2008
Табулатуры группы Nazareth
Тексты песен участников группы Nazareth
Тексты песен Nazareth
 
Rock Text
Hard Rock Text
Rock Lyrics
 
Partners
 


 
Nazareth Press
 
Login Form
Логин:
Пароль:





MEADOWS
--------------------------------------------------------------------
----------4^5^4-----------------------------5---5---5---5---5---5---
-(4)--------------6^8^6---4^6^4-------------6-------6---------------
-(6)----------------------------------------------------------------
--------------------------------------------------------------------
--------------------------------------------------------------------
Hear the lark and hark-en
G F#m E
--------------------------------------------------------------------
--3-3-3-------3---2---2---2-----------------------------------------
--4---------------2-----------2---------------------4-----------4---
----------------------------------------------------6-------7---6---
--------------------------------------------------------------------
--------------------------------------------------------------------
to the bark-ing of the dog-fox gone to ground
A
--------------------------------------------------------------------
--------------------------------------------5---5---5---5---5---5---
-(4)----------------------------------------6-------6---------------
-(6)----------------------------------------------------------------
--------------------------------------------------------------------
--------------------------------------------------------------------
See the splashing of the
G F#m E
--------------------------------------------------------------------
--3---3-3---------2---2---2-----------------------------------------
--4---------------2-------------2---4---4---------------------------
------------------------------------6-------------------------------
--------------------------------------------------------------------
--------------------------------------------------------------------
kingfisher flashing to the wa- ter
A
--------------------------------------------------------------------
------------------------------------5---5-------5---5-------5-------
--------------------------4---4-----6---------------6---------------
--------------------------------------------------------------------
--------------------------------------------------------------------
--------------------------------------------------------------------
And a riv-er of green is
G F#m E
--------------------------------------------------------------------
--3---3-------3---2-----2-2-----------------------------------------
--4---------------2-----------2-----4-------------------------------
------------------------------------6-------------------------------
--------------------------------------------------------------------
--------------------------------------------------------------------
sliding un- seen beneath the trees
A
--------------------------------------------------------------------
------------------------------------5---5---5---5---5---5---5---5---
------------------------------------6---------------6---------------
--------------------------------------------------------------------
--------------------------------------------------------------------
--------------------------------------------------------------------
Laughing as it passes through the
G F#m E
--------------------------------------------------------------------
--3---3---3-3-----2---2---2-----------------------------------------
--4---------------2-----------2-----4-------------------------------
------------------------------------6-------------------------------
--------------------------------------------------------------------
--------------------------------------------------------------------
end-less summer mak-ing for the sea
Menu Nazareth
Главная страница
Информация о сайте
Каталог ссылок

The Anthology


Обратная связь
Гостевая книга
Hard Rock Lyrics
Texts And Lyrics
Texts And Translations
Tabs And Translations




От мира сего...




 
  Российский неофициальный сайт легендарной группы Nazareth © 2019