Menu Nazareth
Главная страница
Биография Nazareth
История группы Nazareth
История группы Nazareth - 1
Состав группы Nazareth
Статьи о группе Nazareth
Блог на сайте Nazareth
PIONEERS AND MAVERICKS OF SCOTTISH ROCK
Дискография Nazareth
LP Nazareth 1975-1980
LP Nazareth 1981-1986
LP Nazareth 1989-2011
Фотоархив группы
Концертные фото Nazareth
Посмотреть видео Nazareth
Nazareth. Rusian Fan Site. Biographies, Diskographies, Photos, Video, Tour Dates. Оригинальные композиции  Табулатуры для гитаристов Лирика и мызыка Творчество Nazareth
График тура Nazareth - 2008
Табулатуры группы Nazareth
Тексты песен участников группы Nazareth
Тексты песен Nazareth
 
Rock Text
Hard Rock Text
Rock Lyrics
 
Partners
 


 
Nazareth Press
 
Login Form
Логин:
Пароль:





OUT THERE 2
C G/B Am N.C.
e----------0-------------------0--------------0------------8------7----
B--------1---1-------------1-3---3-1--------0---0----------------------
G------0-------0---------0----------------2-------2------9------7------
D----2-----------2-----0----------------2------------------------------
A--3-----------------2----------------0--------------------------------
E----------------------------------------------------------------------
Am Am/F Am/F# Am/F
e---------0---------------0-----------------0---------------0----------
B-------1---1------------1---1------------1---1-----------1---1--------
G-----2------2---2-----2-------2---2-----2------2---2----2-------2---2-
D---2----------2-----3-----------3-----4----------4----3-----------3---
A----------------------------------------------------------------------
E----------------------------------------------------------------------
Am Am/D Am/C Am/B Am u.
e--------0--------0--------0-------0-------------------5-7-8------12---
B------1--------1--------1-------1----------1----1/5--------------10---
G----2--------2--------2-------2----------2-----------------------9----
D--2--------0---------------------------2-------------------------10---
A--------------------3-------2--------0---------------------------0----
E----------------------------------------------------------------------
Menu Nazareth
Главная страница
Информация о сайте
Каталог ссылок

The Anthology


Обратная связь
Гостевая книга
Hard Rock Lyrics
Texts And Lyrics
Texts And Translations
Tabs And Translations




От мира сего...




 
  Российский неофициальный сайт легендарной группы Nazareth © 2019