Menu Nazareth
Главная страница
Биография Nazareth
История группы Nazareth
История группы Nazareth - 1
Состав группы Nazareth
Статьи о группе Nazareth
Блог на сайте Nazareth
PIONEERS AND MAVERICKS OF SCOTTISH ROCK
Дискография Nazareth
LP Nazareth 1975-1980
LP Nazareth 1981-1986
LP Nazareth 1989-2011
Фотоархив группы
Концертные фото Nazareth
Посмотреть видео Nazareth
Nazareth. Rusian Fan Site. Biographies, Diskographies, Photos, Video, Tour Dates. Оригинальные композиции  Табулатуры для гитаристов Лирика и мызыка Творчество Nazareth
График тура Nazareth - 2008
Табулатуры группы Nazareth
Тексты песен участников группы Nazareth
Тексты песен Nazareth
 
Rock Text
Hard Rock Text
Rock Lyrics
 
Partners
 


 
Nazareth Press
 
Login Form
Логин:
Пароль:





PIGS 3
----------x---------------------------------------------------------------
--0--15------15-----------15----------------------------------------------
--0--14b-----14b--12--12-----12--14--14b--14pb--12----14-12---------------
--0------------------------------------------------14-------14-12---------
------------------------------------------------------------------12\-10--
--------------------------------------------------------------------------
Repeat
once
-------------------------------------------------------------------------
---------12--12--12--12--12--12-12--12---12-12--12-0-----12--0---12---12-
---------12--12--12--12--12--12-12--12---12-12--12---0---12----0-12---12'
------------------------------------------------------------------------'
-12p10-------------------------------------------------------------------
-------12----------------------------------------------------------------
Play until song
ends
--15p12----15p12----15p12----15p12----15p12----15p12----15p12-----15p12---
--------12-------12-------12-------12-------12-------12-------12--------12
-------------------------------------------------------------------------'
-------------------------------------------------------------------------'
--------------------------------------------------------------------------
--------------------------------------------------------------------------
Menu Nazareth
Главная страница
Информация о сайте
Каталог ссылок

The Anthology


Обратная связь
Гостевая книга
Hard Rock Lyrics
Texts And Lyrics
Texts And Translations
Tabs And Translations




От мира сего...




 
  Российский неофициальный сайт легендарной группы Nazareth © 2019