Menu Nazareth
Главная страница
Биография Nazareth
История группы Nazareth
История группы Nazareth - 1
Состав группы Nazareth
Статьи о группе Nazareth
Блог на сайте Nazareth
PIONEERS AND MAVERICKS OF SCOTTISH ROCK
Дискография Nazareth
LP Nazareth 1975-1980
LP Nazareth 1981-1986
LP Nazareth 1989-2011
Фотоархив группы
Концертные фото Nazareth
Посмотреть видео Nazareth
Nazareth. Rusian Fan Site. Biographies, Diskographies, Photos, Video, Tour Dates. Оригинальные композиции  Табулатуры для гитаристов Лирика и мызыка Творчество Nazareth
График тура Nazareth - 2008
Табулатуры группы Nazareth
Тексты песен участников группы Nazareth
Тексты песен Nazareth
 
Rock Text
Hard Rock Text
Rock Lyrics
 
Partners
 


 
Nazareth Press
 
Login Form
Логин:
Пароль:





POLES APART
TUNING: DADGAD
INTRO:
D-------------0-----------------0--------
A-------0-----------0-----0-----------0--
G----7-----------------6-----------6-----
D----------5-----5-----------5-----------
A----------------------------------------
D----------------------------------------
D-------------0-----------------0--------
A-------0-----------0-----0-----------0--
G----4-----------------6-----------6-----
D----------5-----5-----------5-----------
A----------------------------------------
D----------------------------------------
D-------------0-----------------0--------
A-------0-----------0-----0-----------0--
G----7-----------------6-----------6-----
D----------5-----5-----------5-----------
A----------------------------------------
D----------------------------------------
________________________________________
1.-3 3x
D-------------0-----------------0---------
A-------0-----------0-----0-----------0---
G----4-----------------6-----------6-----*
D----------5-----5-----------5-----------*
A-----------------------------------------
D-----------------------------------------
_______________________________________
4.
D-------------0-----------------0--------
A-------0-----------0-----0-----------0--
G----4-----------------2-----0-----0-----
D----------5-----5-----------------------
A----------------------------------------
D----------------------------------------

Rhythm figure 1
D------------------------------------------
A-------------------0----------------------
G-------------0-----------------0----------
D-------4--------4--------4-------------4--
A----------0-----------------0-------------
D----0-----------------0-----------(0)-----
D------------------------------------------
A-------------------0----------------------
G-------------0-----------------0----------
D-------4--------4--------4-------------4--
A----------0-----------------0-------------
D----0-----------------0-----------(0)-----
D------------------------------------------
A-------------------0----------------------
G-------------0-----------------0----------
D-------4--------4--------4-------------4--
A----------0-----------------0-------------
D----0-----------------0-----------(0
Menu Nazareth
Главная страница
Информация о сайте
Каталог ссылок

The Anthology


Обратная связь
Гостевая книга
Hard Rock Lyrics
Texts And Lyrics
Texts And Translations
Tabs And Translations




От мира сего...




 
  Российский неофициальный сайт легендарной группы Nazareth © 2019