Menu Nazareth
Главная страница
Биография Nazareth
История группы Nazareth
История группы Nazareth - 1
Состав группы Nazareth
Статьи о группе Nazareth
Блог на сайте Nazareth
PIONEERS AND MAVERICKS OF SCOTTISH ROCK
Дискография Nazareth
LP Nazareth 1975-1980
LP Nazareth 1981-1986
LP Nazareth 1989-2011
Фотоархив группы
Концертные фото Nazareth
Посмотреть видео Nazareth
Nazareth. Rusian Fan Site. Biographies, Diskographies, Photos, Video, Tour Dates. Оригинальные композиции  Табулатуры для гитаристов Лирика и мызыка Творчество Nazareth
График тура Nazareth - 2008
Табулатуры группы Nazareth
Тексты песен участников группы Nazareth
Тексты песен Nazareth
 
Rock Text
Hard Rock Text
Rock Lyrics
 
Partners
 


 
Nazareth Press
 
Login Form
Логин:
Пароль:





SHINE ON YOU
CRAZY DIAMOND PART 1
Gm
e--------------------------------------------------------------------
B-----18b(20)~--18--18b(20)~-----------------------------------------
G------------------------------------15--17--17b(19)--17--17b(19)~---
D--------------------------------17----------------------------------
A--------------------------------------------------------------------
E--------------------------------------------------------------------
Dm
e-----------------------------------------------------
B-----------------------------------------------------
G---------17b(19)r17p15--17---17b(19)--17-17b(19)-----
D-----------------------------------------------------
A-----------------------------------------------------
E-----------------------------------------------------
Cm
e--------------------------------------------------------------------------
B------10h11p10----10------------------------------------------------------
G---------------12----10-10----10---------12-b(15)r12---12b(15)----(15)r12-
D---------------------------12---------------------------------------------
A--------------------------------------------------------------------------
E--------------------------------------------------------------------------
e-------------------------------------------------------------------------
B----------------------------------------------------------------------18-
G---10h12--12b(15)~--------------12b(15)-r12----10--12--12~---17b(19)-----
D-------------------------------------------------------------------------
A-------------------------------------------------------------------------
E-------------------------------------------------------------------------
Gm
e--------------------------15--18~-----18b(20)---18\~---------------------
B---18b(20)--------18b(20)------------------------------------------------
G---------------------------------------------------------17-b(18)r17-15--
D-------------------------------------------------------------------------
A-------------------------------------------------------------------------
E-------------------------------------------------------------------------
e-------------------------------------------------------------------------
B-------------------------------------------------------------------------
G---------------10--12~---------12b(15)-(15)-(15)---r12------10h12~-------
D-----------12------------------------------------------------------------
A-------------------------------------------------------------------------
E-------------------------------------------------------------------------
Dm
e--------------------------------------------------------------------
B------------------------------------------------------------18------
G-------------17b(19)r17p15--17----17b(19)~----------17b(19)---------
D--------------------------------------------------------------------
A--------------------------------------------------------------------
E--------------------------------------------------------------------
e-----------15--------------------------------------------------------------
B--18b(20)------18b(20)~-----18b(20)r18-15----------------------------------
G-------------------------------------------17b(19)~-------17b(19)r17p15-17-
D---------------------------------------------------------------------------
A---------------------------------------------------------------------------
E---------------------------------------------------------------------------
Cm Dm
e-------------------------------------------------------------------------
B----------------------------------------------------------------------18-
G--17------------------15~-----17b(19)r17p15-17--17b(19)-------17b(19)----
D------------15/17--------------------------------------------------------
A-------------------------------------------------------------------------
E-------------------------------------------------------------------------
Menu Nazareth
Главная страница
Информация о сайте
Каталог ссылок

The Anthology


Обратная связь
Гостевая книга
Hard Rock Lyrics
Texts And Lyrics
Texts And Translations
Tabs And Translations




От мира сего...





 
  Российский неофициальный сайт легендарной группы Nazareth © 2020