Menu Nazareth
Главная страница
Биография Nazareth
История группы Nazareth
История группы Nazareth - 1
Состав группы Nazareth
Статьи о группе Nazareth
Блог на сайте Nazareth
PIONEERS AND MAVERICKS OF SCOTTISH ROCK
Дискография Nazareth
LP Nazareth 1975-1980
LP Nazareth 1981-1986
LP Nazareth 1989-2011
Фотоархив группы
Концертные фото Nazareth
Посмотреть видео Nazareth
Nazareth. Rusian Fan Site. Biographies, Diskographies, Photos, Video, Tour Dates. Оригинальные композиции  Табулатуры для гитаристов Лирика и мызыка Творчество Nazareth
График тура Nazareth - 2008
Табулатуры группы Nazareth
Тексты песен участников группы Nazareth
Тексты песен Nazareth
 
Rock Text
Hard Rock Text
Rock Lyrics
 
Partners
 


 
Nazareth Press
 
Login Form
Логин:
Пароль:





SHINE ON YOU 5
Shine on you crazy....
------------------------------------------------------------
------------------------------------------------------------
------------------------------------------------------------
---8---8---5---3--------------------------------------------
---6---5---3---1--------3---3>(5)--3------------------------
--------------------1---1-------------3>(5)---1vvvvvv--1/2--

threatened by shadows...
------------------------------------------------------------
---6>(8)>6>(8)>6--6-----------------------------3-----3-----
---------------------5>(7)---3>5>3vvvvvv--------3--3--3-----
---------------------------------------------3--3--3-----3--
---------------------------------------------1--------------
-----------------------------------------------------------
Shine on you crazy.....
------------------------13--13--13--10--8\1--
------------------------13--13--13--10--8\1--
---------------------------------------------
---8--8--5--3--------------------------------
---6--5--3--1--------------------------------
-----------------1---------------------------
Menu Nazareth
Главная страница
Информация о сайте
Каталог ссылок

The Anthology


Обратная связь
Гостевая книга
Hard Rock Lyrics
Texts And Lyrics
Texts And Translations
Tabs And Translations




От мира сего...





 
  Российский неофициальный сайт легендарной группы Nazareth © 2020