Menu Nazareth
Главная страница
Биография Nazareth
История группы Nazareth
История группы Nazareth - 1
Состав группы Nazareth
Статьи о группе Nazareth
Блог на сайте Nazareth
PIONEERS AND MAVERICKS OF SCOTTISH ROCK
Дискография Nazareth
LP Nazareth 1975-1980
LP Nazareth 1981-1986
LP Nazareth 1989-2011
Фотоархив группы
Концертные фото Nazareth
Посмотреть видео Nazareth
Nazareth. Rusian Fan Site. Biographies, Diskographies, Photos, Video, Tour Dates. Оригинальные композиции  Табулатуры для гитаристов Лирика и мызыка Творчество Nazareth
График тура Nazareth - 2008
Табулатуры группы Nazareth
Тексты песен участников группы Nazareth
Тексты песен Nazareth
 
Rock Text
Hard Rock Text
Rock Lyrics
 
Partners
 


 
Nazareth Press
 
Login Form
Логин:
Пароль:





SHINE ON YOU 8
-----12vvvvv-------12vvvv-------14vvv---------------------------------------
-15>(17)vvvv---15>(17)vvv---17>(19)vv--19>(20)vvvvv--19>(20)vvvv---19>(20)--
----------------------------------------------------------------------------
----------------------------------------------------------------------------
----------------------------------------------------------------------------
----------------------------------------------------------------------------
------17vvvv-------17vvvvvv------17------17------17------17------17---------19-
--20>(22)vvv---20>(22)vvvvv--20>(22)-20>(22)-20>(22)-20>(22)-20>(22)-20>(22)---
-------------------------------------------------------------------------------
-------------------------------------------------------------------------------
-------------------------------------------------------------------------------
-------------------------------------------------------------------------------
--19vvvvv--19vvvvvvvvvvv\----------------------------
-----------------------------------------------------
------------------------------2>(3)>2>0--------------
------------------------------------------2vvvvvvv---
-----------------------------------------------------
-----------------------------------------------------
------0--------------------------------------------------------------------
----------12-VVVVVVV\------------------------------------------------------
-/9-------12-VVVVVVV\--7---------------------------------------------------
----------12-VVVVVVV\--7--7>(8)>7>5--7vvvv---------------------------------
--------------------------------------------7--7----------------5----------
--------------------------------------------------5>(6)>5--3--0----3---0---
-----------------------------------------------------------------
--------------------------------------------------------------7--
--------------------------------------------------7--9--7--9-----
--2--2--4--4/5--4--'5'--5/7--5--4--7/9vvvv---7--9----------------
-----------------------------------------------------------------
-----------------------------------------------------------------
----------------------------------------------
--8>7>5----5>3>0---3>0------------------------
---------7-------2----------------------------
------------------------2>0--5--2>0-----------
--------------------------------------2-------
-----------------------------------------3/5--


Fills:
------
Fill A
------------------
--7---------------
----7-----7vvvvv--
-------9----------
------------------
------------------
Fill B
------------
------------
------------
------------
------------
--10\3--0\--
Fill C
--------------
--------------
--------------
------2-------
--------------
-2/3------3---

Fill D
-------------
-------------
-------------
------0------
-1/2---------
---------0---
Menu Nazareth
Главная страница
Информация о сайте
Каталог ссылок

The Anthology


Обратная связь
Гостевая книга
Hard Rock Lyrics
Texts And Lyrics
Texts And Translations
Tabs And Translations




От мира сего...




 
  Российский неофициальный сайт легендарной группы Nazareth © 2019