Menu Nazareth
Главная страница
Биография Nazareth
История группы Nazareth
История группы Nazareth - 1
Состав группы Nazareth
Статьи о группе Nazareth
Блог на сайте Nazareth
PIONEERS AND MAVERICKS OF SCOTTISH ROCK
Дискография Nazareth
LP Nazareth 1975-1980
LP Nazareth 1981-1986
LP Nazareth 1989-2011
Фотоархив группы
Концертные фото Nazareth
Посмотреть видео Nazareth
Nazareth. Rusian Fan Site. Biographies, Diskographies, Photos, Video, Tour Dates. Оригинальные композиции  Табулатуры для гитаристов Лирика и мызыка Творчество Nazareth
График тура Nazareth - 2008
Табулатуры группы Nazareth
Тексты песен участников группы Nazareth
Тексты песен Nazareth
 
Rock Text
Hard Rock Text
Rock Lyrics
 
Partners
 


 
Nazareth Press
 
Login Form
Логин:
Пароль:





Slight variations
------------------------|---------------------|--------------------|
----14----------14--14--|---------------------|--------------------|
------------------------|--12-----12--12--12--|--10-----10--10--10-|
12------12--12----------|---------------------|--------------------|
G|---------------------|-----------------|---------------------|-----|
D|---------------------|------13--9------|---------------------|-----|
A|--14-----14--14--14--|--11---------11--|--13-----13--13--13--|-----|
E|---------------------|-----------------|---------------------|--11-|
4x
G|---------------------|-------------------------------||----------|
D|---------------------|------------------------------*||----------|
A|---------------------|--12-----12-----14-----14-----*||----------|
E|--11--11-----11--11--|-------------------------------||--0-----0-|
------------|-----------------------|-----------------------|-------|
------------|-----------------------|-----------------------|-------|
------------|-----3--1-----------3--|-----------------------|-----3-|
3-----3-----|--1--------3--0--0-----|--0-----0-----3-----3--|--1----|
---------------|--------------------------|-----------------|----|
---------------|--------------------------|-----------------|----|
1-----------3--|--------------------------|--------2--2--2--|----|
---3--0--0-----|--0-----0-----3-----3-----|--5--5-----------|--0-|
---------------|--------------------------|----------------------|
---------------|--------------------------|----------------------|
---------------|--------------------------|----------------------|
0-----3-----3--|--1-----1-----1-----1-----|--1-----1-----1-----1-|
G|--------------------------|-----------------------|----------------|
D|--------------------------|-----------------------|----------------|
A|--------------------------|-----3--1-----------3--|----------------|
E|--0-----0-----3-----3-----|--1--------3--0--0-----|--0-----0-----3-|
G|-----|-----------------------|--------------------------|----------|
D|-----|-----------------------|--------------------------|----------|
A|-----|-----3--1-----------3--|--------------------------|--------2-|
E|--3--|--1--------3--0--0-----|--0-----0-----3-----3-----|--5--5----|
------|-----------------------|--------------------------|----------|
------|-----------------------|--------------------------|----------|
2--2--|-----------------------|--------------------------|----------|
------|--0-----0-----3-----3--|--1-----1-----1-----1-----|--1-----1-|
(23:42)-end
G|--------------|--|----|
D|--------------|--|----|
A|--------------|--|--7-|
E|--1-----1-----|--|----|
Menu Nazareth
Главная страница
Информация о сайте
Каталог ссылок

The Anthology


Обратная связь
Гостевая книга
Hard Rock Lyrics
Texts And Lyrics
Texts And Translations
Tabs And Translations




От мира сего...




 
  Российский неофициальный сайт легендарной группы Nazareth © 2019