Menu Nazareth
Главная страница
Биография Nazareth
История группы Nazareth
История группы Nazareth - 1
Состав группы Nazareth
Статьи о группе Nazareth
Блог на сайте Nazareth
PIONEERS AND MAVERICKS OF SCOTTISH ROCK
Дискография Nazareth
LP Nazareth 1975-1980
LP Nazareth 1981-1986
LP Nazareth 1989-2011
Фотоархив группы
Концертные фото Nazareth
Посмотреть видео Nazareth
Nazareth. Rusian Fan Site. Biographies, Diskographies, Photos, Video, Tour Dates. Оригинальные композиции  Табулатуры для гитаристов Лирика и мызыка Творчество Nazareth
График тура Nazareth - 2008
Табулатуры группы Nazareth
Тексты песен участников группы Nazareth
Тексты песен Nazareth
 
Rock Text
Hard Rock Text
Rock Lyrics
 
Partners
 


 
Nazareth Press
 
Login Form
Логин:
Пароль:





THE CONTROLS
e-------------------------------
B-(2:06)------------------------
G------------------------------- Repeat until
D------------------------------- (2:13)
A-/7--7--7h8~--7---7\5--5--5/7--
E-------------------------------
e-----------------------
B-(2:13)----------------
G----------------------- Repeat until
D----------------------- (3:13)
A--5~/7~--7~-7~~--------
E-----------------------
"The heart of the sun"
e-------------------------------
B-(2:13)------------------------
G------------------------------- Repeat until
D------------------------------- (3:42)
A-/7--7--7h8~--7---7\5--5--5/7--
E-------------------------------
e-----------------------------------------------------
B-(3:42)----------------------------------------------
G-----------------------------------------------------
D--7--7h8~--7---7\5--5--5/7--7--7h8~--7---7\5--5--5/7-
A-----------------------------------------------------
E-----------------------------------------------------
e--------------------------------------------------------------
B-(3:49)-------------------------------------------------------
G--------------------------------------------------------------
D--------------------------------------------------------------
A-/7--7--7h8~--7---7\5--5--5/7---/7--7--7h8~--7---7\5--5--5/7--
E--------------------------------------------------------------
e------------------------------------------------------------------------
B-(3:56)-----------------------------------------------------------------
G------------------------------------------------------------------------
D------------7~--5~---5~\3--3--3p2---------------7~--5~---5~\3--3--3p2---
A--/7--7--7----------------------------/7--7--7--------------------------
E------------------------------------------------------------------------
e--------------------------------------------------------------
B-(4:04)-------------------------------------------------------
G--------------------------------------------------------------
D--------------------------------------------------------------
A-/7--7--7h8~--7---7\5--5--5/7---/7--7--7h8~--7---7\5--5--5/7--
E--------------------------------------------------------------
"Set the controls for the heart of the sun"
e-----------------------
B-(4:11)----------------
G----------------------- Repeat until
D----------------------- (5:00)
A--5~/7~--7~-7~~--------
E-----------------------
"The heart of the sun"
e-------------------------------
B-/5--5--5h6---5---5\3--3--3/5--
G------------------------------- Repeat until
D------------------------------- (5:12)
A-(5:00)------------------------
E-------------------------------
Menu Nazareth
Главная страница
Информация о сайте
Каталог ссылок

The Anthology


Обратная связь
Гостевая книга
Hard Rock Lyrics
Texts And Lyrics
Texts And Translations
Tabs And Translations




От мира сего...




 
  Российский неофициальный сайт легендарной группы Nazareth © 2019