Menu Nazareth
Главная страница
Биография Nazareth
История группы Nazareth
История группы Nazareth - 1
Состав группы Nazareth
Статьи о группе Nazareth
Блог на сайте Nazareth
PIONEERS AND MAVERICKS OF SCOTTISH ROCK
Дискография Nazareth
LP Nazareth 1975-1980
LP Nazareth 1981-1986
LP Nazareth 1989-2011
Фотоархив группы
Концертные фото Nazareth
Посмотреть видео Nazareth
Nazareth. Rusian Fan Site. Biographies, Diskographies, Photos, Video, Tour Dates. Оригинальные композиции  Табулатуры для гитаристов Лирика и мызыка Творчество Nazareth
График тура Nazareth - 2008
Табулатуры группы Nazareth
Тексты песен участников группы Nazareth
Тексты песен Nazareth
 
Rock Text
Hard Rock Text
Rock Lyrics
 
Partners
 


 
Nazareth Press
 
Login Form
Логин:
Пароль:





The Wall Part 3
G|-5h7-|--------------------|-------7--------------7-|---------|
D|-----|-------5--------5h7-|------------------------|-5-------|
A|-----|--------------------|-5--------------5-------|-------5-|
E|-----|-3------------------|------------------------|---------|
3:00
G|-------------|-------7---------7-|-----------------------|---|
D|-------------|-------------------|-------5-----------5/7-|---|
A|-----2-----3-|-5---------5--5----|-----------------------|-5-|
E|-3-----------|-------------------|-3-----------3--3------|---|
G|-7--------5h7-|---------------------|-------3-----------3-|
D|--------------|-------5-----------5-|---------------------|
A|--------------|---------------------|-1-----------1--1----|
E|--------------|-3-----------3--3----|---------------------|
G|-------------14--14-|-------8-----------8--8-|---------------|
D|--------------------|------------------------|---------------|
A|-0------------------|-6-----------6----------|-8-----------3-|
E|--------------------|------------------------|---------------|
Segue into "Brain Damage"
G|---------|-----------------|
D|---------|-----------------|
A|---4-----|--5--------------|
E|---------|-----------------|
Menu Nazareth
Главная страница
Информация о сайте
Каталог ссылок

The Anthology


Обратная связь
Гостевая книга
Hard Rock Lyrics
Texts And Lyrics
Texts And Translations
Tabs And Translations




От мира сего...




 
  Российский неофициальный сайт легендарной группы Nazareth © 2019