Menu Nazareth
Главная страница
Биография Nazareth
История группы Nazareth
История группы Nazareth - 1
Состав группы Nazareth
Статьи о группе Nazareth
Блог на сайте Nazareth
PIONEERS AND MAVERICKS OF SCOTTISH ROCK
Дискография Nazareth
LP Nazareth 1975-1980
LP Nazareth 1981-1986
LP Nazareth 1989-2011
Фотоархив группы
Концертные фото Nazareth
Посмотреть видео Nazareth
Nazareth. Rusian Fan Site. Biographies, Diskographies, Photos, Video, Tour Dates. Оригинальные композиции  Табулатуры для гитаристов Лирика и мызыка Творчество Nazareth
График тура Nazareth - 2008
Табулатуры группы Nazareth
Тексты песен участников группы Nazareth
Тексты песен Nazareth
 
Rock Text
Hard Rock Text
Rock Lyrics
 
Partners
 

 
Nazareth Press
 
Login Form
Логин:
Пароль:





TIME 2
e----------------------------------------------9--9---9--9>(10)======>9--
B------------------------------------------------------------------------
G----4>(6)==========>4>2-----4>(6)------6/9----9--9---9------------------
D------------------------------------------------------------------------
A------------------------------------------------------------------------
E------------------------------------------------------------------------
-------------------------------------------------------------------------------
--10>(12)==========>10----9vvvvvvv--9>(10)=====>9------------------------------
-----------------------------------------------------9>(10)==>(11)==========>9-
-------------------------------------------------------------------------------
-------------------------------------------------------------------------------
-------------------------------------------------------------------------------
e-----------------------------------17----------------------------------
B-----------14---17>(19)----17>(19)-----17>(19)==========>17---17>(19)--
G-------14--------------------------------------------------------------
D---/16-----------------------------------------------------------------
A-----------------------------------------------------------------------
E-----------------------------------------------------------------------
e---------------------------------------------------------------------------
B---17----------------------------------------------------------------------
G--------16>(18)vvvvvvv--16>(19)>16>(18)vvvv---16>(18)==========>16vvvvvvv--
D---------------------------------------------------------------------------
A---------------------------------------------------------------------------
E---------------------------------------------------------------------------
--------------------------------------------------17>(19)-----17>(19)=====>17-
--------15--15---14>(15)>14-------------------14------------------------------
----16------------------------14----------------------------------------------
----------------------------------16vvvvvvv-----------------------------------
------------------------------------------------------------------------------
------------------------------------------------------------------------------
----------------------------------------------------------------------------
----17>(19)vvvvvvvvvvvvv----(19)>17--17vvvv---------------------------------
----------------------------------------------(17)>16>14--14---16>(18)vvvv--
----------------------------------------------------------------------------
----------------------------------------------------------------------------
----------------------------------------------------------------------------
e----19>(21)===>19--19>(21)=====>19--19vvvvvvv----
B-------------------------------------------------
G-------------------------------------------------
D-------------------------------------------------
A-------------------------------------------------
E-------------------------------------------------
e----16------------------------------------------------------
B--------17--------17/19vvvvvv---17>19>17---17\14vvvvvvvvv\--
G------------16----------------------------------------------
D------------------------------------------------------------
A------------------------------------------------------------
E------------------------------------------------------------
Menu Nazareth
Главная страница
Информация о сайте
Каталог ссылок

The Anthology

Обратная связь
Гостевая книга
Hard Rock Lyrics
Texts And Lyrics
Texts And Translations
Tabs And Translations




От мира сего...




 
  Российский неофициальный сайт легендарной группы Nazareth © 2017