Menu Nazareth
Главная страница
Биография Nazareth
История группы Nazareth
История группы Nazareth - 1
Состав группы Nazareth
Статьи о группе Nazareth
Блог на сайте Nazareth
PIONEERS AND MAVERICKS OF SCOTTISH ROCK
Дискография Nazareth
LP Nazareth 1975-1980
LP Nazareth 1981-1986
LP Nazareth 1989-2011
Фотоархив группы
Концертные фото Nazareth
Посмотреть видео Nazareth
Nazareth. Rusian Fan Site. Biographies, Diskographies, Photos, Video, Tour Dates. Оригинальные композиции  Табулатуры для гитаристов Лирика и мызыка Творчество Nazareth
График тура Nazareth - 2008
Табулатуры группы Nazareth
Тексты песен участников группы Nazareth
Тексты песен Nazareth
 
Rock Text
Hard Rock Text
Rock Lyrics
 
Partners
 

 
Nazareth Press
 
Login Form
Логин:
Пароль:





TIME 3
This begins where the rhythm changes to the progression that plays over the
chorus(begins with Dmaj7)
----------------------------------------------------------
----------7---10/12--10vvvvv---9--10---9>10>9>7\5vvvvvv---
-----2/7--------------------------------------------------
--4-------------------------------------------------------
----------------------------------------------------------
----------------------------------------------------------
-------------------------------------------------------------
--7/9---9----7\5-----5\2/5-----2---2-------------------------
----------------------------------4>(6)======vvvv>4--4>(7)---
-------------------------------------------------------------
-------------------------------------------------------------
-------------------------------------------------------------
-------------------------------------------------------------------
-------------------------------------------------------------------
--(6)======>4--------(6)========>4>2>4>2vvvvvv--4>(6)=========>4---
-------------------------------------------------------------------
-------------------------------------------------------------------
-------------------------------------------------------------------
-------------------------------------------------------------------
-------------------------------------------------------------------
----4vvvvvvvvvvvv-----2vvvvvvvvvvvv--------4-----------------------
--------------------------------------4/6-------6\4--2vvvvvvv------
-------------------------------------------------------------------
----------------------------------------------------------------0--
lead c
(E) F#m A
And you run, and you run to catch up to the sun, but it's sinking,
E F#m lead D
And racing around, to come up behind you again
lead E
E A Asus4 A
The sun is the same in a relative way, but your older,
E F#m
Shorter of breath, and one day closer to death.
Dmaj7 Amaj7
Every year is getting shorter, never seem to find the time
Dmaj7 Amaj7
Plans that either come to naught, or half a page of scribbled lines
Dmaj7 C#m
Hanging on in quite desperation is the english way,
Bm Bm7 F
The time is gone, the song is over thought I'd something more to say.
Leads:
A
--------------------------------------
----2----------2--------2-------------
---4>(6)======(6)=4--2--2-------------
----------------------------2vvvvv----
--------------------------------------
--------------------------------------
Menu Nazareth
Главная страница
Информация о сайте
Каталог ссылок

The Anthology

Обратная связь
Гостевая книга
Hard Rock Lyrics
Texts And Lyrics
Texts And Translations
Tabs And Translations




От мира сего...




 
  Российский неофициальный сайт легендарной группы Nazareth © 2017