Menu Nazareth
Главная страница
Биография Nazareth
История группы Nazareth
История группы Nazareth - 1
Состав группы Nazareth
Статьи о группе Nazareth
Блог на сайте Nazareth
PIONEERS AND MAVERICKS OF SCOTTISH ROCK
Дискография Nazareth
LP Nazareth 1975-1980
LP Nazareth 1981-1986
LP Nazareth 1989-2011
Фотоархив группы
Концертные фото Nazareth
Посмотреть видео Nazareth
Nazareth. Rusian Fan Site. Biographies, Diskographies, Photos, Video, Tour Dates. Оригинальные композиции  Табулатуры для гитаристов Лирика и мызыка Творчество Nazareth
График тура Nazareth - 2008
Табулатуры группы Nazareth
Тексты песен участников группы Nazareth
Тексты песен Nazareth
 
Rock Text
Hard Rock Text
Rock Lyrics
 
Partners
 

 
Nazareth Press
 
Login Form
Логин:
Пароль:





TIME 4
B
---7/9--9--9\7--7\---
---------------------
---7/9--9--9\7--7\---
---------------------
---------------------
---------------------
C
------------------
---7---5---3---2--
------------------
---7---5---4---2--
------------------
------------------
D
-----------------------------------------------
---2-------------------------------------------
--4>(6)------4>(6)>4>2-----2-------------------
------------------------4------2-vvvvvvvvvvv---
-----------------------------------------------
-----------------------------------------------
E
-----------------------
----10---12----10------
----0-----0-----0------
----11---12----11------
-----------------------
-----------------------
Menu Nazareth
Главная страница
Информация о сайте
Каталог ссылок

The Anthology

Обратная связь
Гостевая книга
Hard Rock Lyrics
Texts And Lyrics
Texts And Translations
Tabs And Translations




От мира сего...




 
  Российский неофициальный сайт легендарной группы Nazareth © 2017