Menu Nazareth
Главная страница
Биография Nazareth
История группы Nazareth
История группы Nazareth - 1
Состав группы Nazareth
Статьи о группе Nazareth
Блог на сайте Nazareth
PIONEERS AND MAVERICKS OF SCOTTISH ROCK
Дискография Nazareth
LP Nazareth 1975-1980
LP Nazareth 1981-1986
LP Nazareth 1989-2011
Фотоархив группы
Концертные фото Nazareth
Посмотреть видео Nazareth
Nazareth. Rusian Fan Site. Biographies, Diskographies, Photos, Video, Tour Dates. Оригинальные композиции  Табулатуры для гитаристов Лирика и мызыка Творчество Nazareth
График тура Nazareth - 2008
Табулатуры группы Nazareth
Тексты песен участников группы Nazareth
Тексты песен Nazareth
 
Rock Text
Hard Rock Text
Rock Lyrics
 
Partners
 


 
Nazareth Press
 
Login Form
Логин:
Пароль:





TURNING AWAY 2
E5 D E5
e--15---17---17>(19)===>17--15>12-15>0vvvvvvvv-------------------------------
B-----------------------------------------------15>(17)vvvvvvvvv-15>12--15vvv
G----------------------------------------------------------------------------
D----------------------------------------------------------------------------
A----------------------------------------------------------------------------
E----------------------------------------------------------------------------
D G
e----------------------------------------------------------------------------
B--15>12--12\--------------------------------------15/17\15--15/17--0-8-0-3-0
G--------------14>(16)===>14-14>12>14>12vvvvvvvvv----------------------------
D----------------------------------------------------------------------------
A----------------------------------------------------------------------------
E----------------------------------------------------------------------------
E5
e---------------------------------------------------------
B---------------------------------------------------------
G-------3--------------------2>(4)>2>0--------------------
D-----------2>0----------2-----------------2vvvvvvvv------
A-----------------2>0-------------------------------------
E---------------------------------------------------------
C E5
e-------------------------------------------------------------------------
B----10vvvvvvvvvvvv----10/12--12vvvvvvvvvvv---10>(12)====>10>8--10vvvv----
G-------------------------------------------------------------------------
D-------------------------------------------------------------------------
A-------------------------------------------------------------------------
E-------------------------------------------------------------------------
D E5 D G
e-----------10--------------------------------------------------------------
B---8---10------10>(12)vvvvvvvvv--10>(12)==>10>8---10>8\7-\/-\/-\/--8-8vvvvv
G---------------------------------------------------------------------------
D---------------------------------------------------------------------------
A---------------------------------------------------------------------------
E---------------------------------------------------------------------------
E5
e-------15>12------14>12--------15>12-------14>12------15>(17)vvvvv--
B----0---------12----------12-----------12---------12----------------
G--------------------------------------------------------------------
D--------------------------------------------------------------------
A--------------------------------------------------------------------
E--------------------------------------------------------------------
C E5
e---15>14--14>(15)>14--------------------------------------------------------
B----------------------15------------12------15vvvvv---12>15>12--------------
G----------------------------14vvv-------14----------------------14>12vvvvv--
D----------------------------------------------------------------------------
A----------------------------------------------------------------------------
E----------------------------------------------------------------------------
D
e--------------------------------------------
B--------------------------------------------
G--------2vvvvvvv----------------------------
D-------------------0>2>0--------------------
A--------------------------------0-----------
E---------------------------3---------0\-----
Menu Nazareth
Главная страница
Информация о сайте
Каталог ссылок

The Anthology


Обратная связь
Гостевая книга
Hard Rock Lyrics
Texts And Lyrics
Texts And Translations
Tabs And Translations




От мира сего...





 
  Российский неофициальный сайт легендарной группы Nazareth © 2020