Menu Nazareth
Главная страница
Биография Nazareth
История группы Nazareth
История группы Nazareth - 1
Состав группы Nazareth
Статьи о группе Nazareth
Блог на сайте Nazareth
PIONEERS AND MAVERICKS OF SCOTTISH ROCK
Дискография Nazareth
LP Nazareth 1975-1980
LP Nazareth 1981-1986
LP Nazareth 1989-2011
Фотоархив группы
Концертные фото Nazareth
Посмотреть видео Nazareth
Nazareth. Rusian Fan Site. Biographies, Diskographies, Photos, Video, Tour Dates. Оригинальные композиции  Табулатуры для гитаристов Лирика и мызыка Творчество Nazareth
График тура Nazareth - 2008
Табулатуры группы Nazareth
Тексты песен участников группы Nazareth
Тексты песен Nazareth
 
Rock Text
Hard Rock Text
Rock Lyrics
 
Partners
 


 
Nazareth Press
 
Login Form
Логин:
Пароль:





VERA 2
Em C
e------------0-----------------------------0------------
B---------0-----------------------------1-----1---------
G------0------------0-----0----------0------------------
D---2------------2-----0----------2------------------2--
A------------------------------3------------------3-----
E-------------------------------------------------------
Does any - body
D G D/F#
e------------------------------3----------3---2h3---2-------
B----------3-------0--1--2---------0--------------------3---
G-------2-----------------------------0---------------------
D----0---------0--------------------------------------------
A-----------------------------------------------------------
E------------------------------3--------------2-------------
else in here feel the way I do?
C
e--(0)--------0-----------------------------------------------
B----------1-----1--------------------------------------------
G-------0------------0----------------------------------------
D---------------------------0----2----------------------------
A---3--------------------2------------------------------------
E-------------------------------------------------------------
Menu Nazareth
Главная страница
Информация о сайте
Каталог ссылок

The Anthology


Обратная связь
Гостевая книга
Hard Rock Lyrics
Texts And Lyrics
Texts And Translations
Tabs And Translations




От мира сего...





 
  Российский неофициальный сайт легендарной группы Nazareth © 2020