Menu Nazareth
Главная страница
Биография Nazareth
История группы Nazareth
История группы Nazareth - 1
Состав группы Nazareth
Статьи о группе Nazareth
Блог на сайте Nazareth
PIONEERS AND MAVERICKS OF SCOTTISH ROCK
Дискография Nazareth
LP Nazareth 1975-1980
LP Nazareth 1981-1986
LP Nazareth 1989-2011
Фотоархив группы
Концертные фото Nazareth
Посмотреть видео Nazareth
Nazareth. Rusian Fan Site. Biographies, Diskographies, Photos, Video, Tour Dates. Оригинальные композиции  Табулатуры для гитаристов Лирика и мызыка Творчество Nazareth
График тура Nazareth - 2008
Табулатуры группы Nazareth
Тексты песен участников группы Nazareth
Тексты песен Nazareth
 
Rock Text
Hard Rock Text
Rock Lyrics
 
Partners
 

 
Nazareth Press
 
Login Form
Логин:
Пароль:





Young lust 2
Chorus:
Am
Ooh,
-------------------------------------------------
-------------------------------------------------
--5-------------------------------5-------------
--7-------------------------------7-------------
--7-------------------------------7-------------
--5-------------------------------5--------5----
I need a dirty woman
-------------------------------------------------
-------------------------------------------------
--5------------------5\-------------------------
--7------------------7\-------------------------
--7------------------7\-------------------------
--5------------------5\-------------------------
G
-------------------------------------------------
-------------------------------------------------
--4------------------4--------------------------
--5------------------5--------------------------
--5------------------5--------------------------
--3------------------3------------------3-------
-------------------------------------------------
-------------------------------------------------
--4-----------------(4)---4------(5)---5--------
--5------------------5----5-------6---6--------
--5------------------5----5-------6---6--------
--3------------------3----3-------4---4--------
Am
Ooh,
-------------------------------------------------
-------------------------------------------------
--5----------------------------------------5----
--7----------------------------------------7----
--7----------------------------------------7----
--5----------------------------------------5----
I need a dirty girl.
-------------------------------------------------
-------------------------------------------------
--5------------------5--5-----------------------
--7------------------7--7-----------------------
--7------------------7--7-----------------------
--5-------------------------5\------------------
(E5)
-------------------------------------------------
-------------------------------------------------
-------------------------------------------------
-------------------------------------------------
-------------------------------------------------
----0--------------------------------------------
--------------------------------------------------
----------------------12------------15-----------
----------------------12-------12----------------
--------------------------------12---------------
-----------12/-----------------------------------
-------------------------------------------------
Menu Nazareth
Главная страница
Информация о сайте
Каталог ссылок

The Anthology

Обратная связь
Гостевая книга
Hard Rock Lyrics
Texts And Lyrics
Texts And Translations
Tabs And Translations




От мира сего...




 
  Российский неофициальный сайт легендарной группы Nazareth © 2017